Stevie Ray Vaughan - Love Struck Baby - solo: third part

(/) Slide Up  (\) Slide Down  (h) Hammer On  (p) Pull Off  (b) Bend (r) Release (v) Vibrato


E|--17------17--|--17--17--16--17----17--17--17----16--17--|--17----17--17--17--17----17-12--
B|--14------15--|--17--17--16--17----17--17--17----16--17--|--14----14--14--14--14----14-9---
G|--16------16--|--17--17--16--17----17--17--17----16--17--|--16----16--16--16--16----16-11--
D|--17------17--|--16--16--15--16----16--16--16----15--16--|--17----17--17--17--17----17\12--
A|--------------|------------------------------------------|---------------------------------
E|--------------|------------------------------------------|---------------------------------



E|--5--5-------5--5--5--|--8--7--5-----------------|-------5-------5-------------------
B|--5--5-------5--5--5--|--8--7--5--8--7--5-----5--|-------5-------5--7--5-------7-----
G|--------7b9-----------|-----------8--7--5-----5--|--7b9-----7b9-----7--5h6-----7-----
D|----------------------|--------------------7-----|--------------------------7--------
A|----------------------|--------------------------|-----------------------------------
E|----------------------|--------------------------|-----------------------------------



E|---------------------------|--
B|--5-------7--5----------5--|--
G|--5h6-----7--5h6--------7--|--
D|-------7----------7-----6--|--
A|---------------------7--7--|--
E|---------------------------|--
http://www.guitartabcreator.com
Guitar Tab Creator is intended to store guitar tab created through the tool. It currently does not support in-line text editing. Any text you place in here will be lost. If you need to comment on your tab, please use the "Tab Notes" section located below.