Stevie Ray Vaughan - Love Struck Baby - solo: second part

(/) Slide Up  (\) Slide Down  (h) Hammer On  (p) Pull Off  (b) Bend (r) Release (v) Vibrato


E|--8--8-9--8-9--8-9--8-9--8-9--8-9--8-9--8-9--12--|--12--11--12--13--14--15--16--17--|--
B|--7--7-8--7-8--7-8--7-8--7-8--7-8--7-8--7-8--12--|--12--11--12--13--14--15--16--17--|--
G|--8--8b9--8b9--8b9--8b9--8b9--8b9--8b9--8b9--12--|--12--11--12--13--14--15--16--17--|--
D|---------------------------------------------11--|--11--10--11--12--13--14--15--16--|--
A|-------------------------------------------------|----------------------------------|--
E|-------------------------------------------------|----------------------------------|--



E|--16--17----17--17--17--16--17--|--17--17--17--17--17----17--|--5--5--5-------5--5--5--|--
B|--16--17----17--17--17--16--17--|--14--14--14--14--14----14--|--5--5--5-------5--5--5--|--
G|--16--17----17--17--17--16--17--|--16--16--16--16--16----16--|-----------7b9-----------|--
D|--15--16----16--16--16--15--16--|--17--17--17--17--17----17--|-------------------------|--
A|--------------------------------|----------------------------|-------------------------|--
E|--------------------------------|----------------------------|-------------------------|--



E|--8--7--5-----------------|-------5--5----5----------|-------------5----------5--------|--
B|--8--7--5--8--7--5-----5--|-------5--5----5--7--5----|-----7--5----5--7--5----5-----5--|--
G|-----------8--7--5-----5--|--7b9-----7b9-----7--5h6--|-----7--5h6-----7--5h6--5-----7--|--
D|--------------------7-----|--------------------------|--7------------------------6--6--|--
A|--------------------------|--------------------------|---------------------------7--7--|--
E|--------------------------|--------------------------|---------------------------------|--



E|--
B|--
G|--
D|--
A|--
E|--
http://www.guitartabcreator.com
Guitar Tab Creator is intended to store guitar tab created through the tool. It currently does not support in-line text editing. Any text you place in here will be lost. If you need to comment on your tab, please use the "Tab Notes" section located below.