Stevie Ray Vaughan - Love Struck Baby - solo: first part

(/) Slide Up  (\) Slide Down  (h) Hammer On  (p) Pull Off  (b) Bend (r) Release (v) Vibrato

E|--5--5--5--5--5--5--5----|--8-9--8-9--8-9--|--8-9--8-9--8--|--5--5--5----5--5--5----5--5--|--
B|--5--5--5--5--5--5--5----|--7-8--7-8--7-8--|--7-8--7-8--7--|--5--5--5----5--5--5----5-----|--
G|-------------------------|--8b9--8b9--8b9--|--8b9--8b9--8--|--------7b9--------7b9--------|--
D|-------------------------|-----------------|---------------|------------------------------|--
A|-------------------------|-----------------|---------------|------------------------------|--
E|-------------------------|-----------------|---------------|------------------------------|--



E|--8b9--5-------5--5----5-----5--|--5----5--5----5-----------------------------------5--|--
B|-------5--8b9--5--5----5-----5--|--5----5--5----5--7--5-------7--5-------7--5-------5--|--
G|------------------7b9-----7--5--|--7b9-----7b9-----7--5h6-----7--5h6-----7--5--7b9-----|--
D|--------------------------------|--------------------------7----------7----------------|--
A|--------------------------------|------------------------------------------------------|--
E|--------------------------------|------------------------------------------------------|--



E|-------------------|--8--7--5--------5-----5--|-------5-------5----------------
B|--7--5-------7--5--|--8--7--5--8--7--5-----5--|-------5-------5--7--5-------7--
G|--7--5h6-----7--5--|-----------8--7--5-----5--|--7b9-----7b9-----7--5h6-----7--
D|----------7--------|--------------------7-----|--------------------------7-----
A|-------------------|--------------------------|--------------------------------
E|-------------------|--------------------------|--------------------------------



E|---------------------------|--
B|--5-------7--5----------5--|--
G|--5h6-----7--5h6--------7--|--
D|-------7----------7-----6--|--
A|------------------------7--|--
E|---------------------0-----|--



E|--
B|--
G|--
D|--
A|--
E|--
http://www.guitartabcreator.com
Guitar Tab Creator is intended to store guitar tab created through the tool. It currently does not support in-line text editing. Any text you place in here will be lost. If you need to comment on your tab, please use the "Tab Notes" section located below.