Stevie Ray Vaughan - Love Struck Baby - intro

(/) Slide Up  (\) Slide Down  (h) Hammer On  (p) Pull Off  (b) Bend (r) Release (v) Vibrato


E|--12--12--12--|--12--12--12--12--15-----|--10--10--10--10--13-----5--|--8--8--8--8--8--8--|--
B|--12--12--12--|--12--12--12--12--14b15--|--10--10--10--10--12b13--5--|--7--7--7--7--7--7--|--
G|--------------|-------------------------|----------------------------|--8--8--8--8--8--8--|--
D|--------------|-------------------------|----------------------------|--------------------|--
A|--------------|-------------------------|----------------------------|--------------------|--
E|--------------|-------------------------|----------------------------|--------------------|--



E|--5----------|--
B|--5----5--5--|--
G|-------7--7--|--
D|-------6--6--|--
A|-------7--7--|--
E|-------------|--
http://www.guitartabcreator.com
Guitar Tab Creator is intended to store guitar tab created through the tool. It currently does not support in-line text editing. Any text you place in here will be lost. If you need to comment on your tab, please use the "Tab Notes" section located below.