Stevie Ray Vaughan - Love Struck Baby - ending

(/) Slide Up  (\) Slide Down  (h) Hammer On  (p) Pull Off  (b) Bend (r) Release (v) Vibrato

E|--12--12--12--12--12--12--15-16--|--10--10--10--10--10--10--13-14--|--
B|--12--12--12--12--12--12--14b15--|--10--10--10--10--10--10--12b13--|--
G|---------------------------------|---------------------------------|--
D|---------------------------------|---------------------------------|--
A|---------------------------------|---------------------------------|--
E|---------------------------------|---------------------------------|--



E|--5--8--7--5-----------------------12v--v--v--v--12\
B|--5--8--7--5--8--7--5--------------12------------12-
G|--------------8--7--5--------------12------------12-
D|-----------------------7--5--------11------------11-
A|-----------------------------7-----12------------12-
E|--------------------------------0-------------------



E|--
B|--
G|--
D|--
A|--
E|--
http://www.guitartabcreator.com
Guitar Tab Creator is intended to store guitar tab created through the tool. It currently does not support in-line text editing. Any text you place in here will be lost. If you need to comment on your tab, please use the "Tab Notes" section located below.