Stevie Ray Vaughan - Empty Arms intro 2 of 2

(/) Slide Up  (\) Slide Down  (h) Hammer On  (p) Pull Off  (b) Bend (r) Release (v) Vibrato


E|----------------------------8---------8------------8------------8-----|--11v--8--6-----
B|------8-10--8-10\8-------8-----11b13-----8--11b13-----8--11b13-----8--|-------------8--
G|--8v----------------5/9-----------------------------------------------|----------------
D|------8/10--8/10-8----------------------------------------------------|----------------
A|----------------------------------------------------------------------|----------------
E|----------------------------------------------------------------------|----------------



E|----------------------|-----------------8---------8-------------|----------------------|--
B|----------------------|--------------8-----11b13----------------|-----8-10--8-10\8-----|--
G|--10b12b10r8----------|--8r0--10b12------------------10b12--10--|--8-------------------|--
D|--------------10--10--|-----------------------------------------|-----8/10--8/10-8-----|--
A|----------------------|-----------------------------------------|----------------------|--
E|----------------------|-----------------------------------------|-------------------8--|--



E|-------------------------------|--10b12--8------8--8---------8--|--------------------
B|--8-10---------------8--10--8--|------------10--8-----8--11--8--|---------11---------
G|----------------8h9------------|--------------------------------|--10b12------10b12--
D|--8/10--10--10-----------------|--------------------------------|--------------------
A|-------------------------------|--------------------------------|--------------------
E|-------------------------------|--------------------------------|--------------------



E|-------------|--------------------------|----------------------|--
B|-------------|---------8-10--8-10\8-----|--8-10----------------|--
G|--10--9------|--------------------------|----------------------|--
D|---------10--|--10-----8/10--8/10-8-----|--8/10----------------|--
A|-------------|-----------------------8--|----------10--10v--v--|--
E|-------------|------8-------------------|----------------------|--
http://www.guitartabcreator.com
Guitar Tab Creator is intended to store guitar tab created through the tool. It currently does not support in-line text editing. Any text you place in here will be lost. If you need to comment on your tab, please use the "Tab Notes" section located below.