Stevie Ray Vaughan - Empty Arms intro 1 of 2

(/) Slide Up  (\) Slide Down  (h) Hammer On  (p) Pull Off  (b) Bend (r) Release (v) Vibrato


E|----------8------8------8---|----------8------8------8---|----------8---------8--8--|--
B|-------8-----11--8--11--10--|-------8-----11--8--11--10--|-------8-----11b13--8--8--|--
G|--8h9-------------------9---|--8h9-------------------9---|--8h9---------------------|--
D|----------------------------|----------------------------|--------------------------|--
A|----------------------------|----------------------------|--------------------------|--
E|----------------------------|----------------------------|--------------------------|--



E|---------8--8---------8--8---------8--8--|------------------------------------------|--
B|--11b13--8--8--11b13--8--8--11b13--8--8--|------------------------------------------|--
G|-----------------------------------------|--10b12b10r8------8-----------------------|--
D|-----------------------------------------|--------------10-------10r8------8h9--10--|--
A|-----------------------------------------|-----------------------------10-----------|--
E|-----------------------------------------|------------------------------------------|--



E|-----8-10--8-10--8-----|--10--10------------8----|--------------------|------------------|--
B|-----8-10--8-10--8-----|--10--10--8-----10--8----|------8-10--8-10\8--|--8-10--8-10--8---|--
G|-----8/10--8h10--8-----|--10--10--8--8--10--8h9--|--------------------|------------------|--
D|-----------------------|-------------------------|--10--8/10--8/10-8--|--8/10--8/10--8v--|--
A|--8-----------------8--|-------------------------|--------------------|------------------|--
E|-----------------------|-------------------------|--------------------|------------------|--



E|--------10-12--10--12-10-----|--------8-10---------------------|----8--------------------|--
B|--------10-12--10--12-10-----|--------8-10--8-----8--10-8------|----8------8-10--8-10\8--|--
G|--------10/12--10--12r10--0--|--------8/10--8v----8--10r8------|--8h9--------------------|--
D|-----------------------------|-----------------------------10--|-------10--8/10--8/10-8--|--
A|--5/10-----------------------|--8--8---------------------------|-------------------------|--
E|-----------------------------|---------------------------------|-------------------------|--



E|-----------------------------|----------------------|-----------8---------8------8-------------
B|--8-10-----------------------|-------8-10--8--10-8--|--------8-----11b13-----11--8-------------
G|----------------8h9--8--8h9--|----------------------|--5/10-------------------------10b12--10--
D|--8/10--10--10---------------|--10v--8/10--8--10\8--|------------------------------------------
A|-----------------------------|----------------------|------------------------------------------
E|-----------------------------|----------------------|------------------------------------------



E|--
B|--
G|--
D|--
A|--
E|--
http://www.guitartabcreator.com
Guitar Tab Creator is intended to store guitar tab created through the tool. It currently does not support in-line text editing. Any text you place in here will be lost. If you need to comment on your tab, please use the "Tab Notes" section located below.