Steely Dan - Rikki Don't Lost That Number

(/) Slide Up  (\) Slide Down  (h) Hammer On  (p) Pull Off  (b) Bend (r) Release (v) Vibrato


E|-----------------------------------------|------------------|-----------------|--
B|--15b17b15r12--15b17v--------------------|------------------|---------12------|--
G|-----------------------15b14r12--14b16v--|--13b11r9--11h13--|--14b16------14--|--
D|-----------------------------------------|------------------|-----------------|--
A|-----------------------------------------|------------------|-----------------|--
E|-----------------------------------------|------------------|-----------------|--



E|---------15--12----------------------------|----------------|-------------------------
B|--15r12------------------------------------|----------------|---------15------15------
G|-----------------15r14r12--14--12b13-------|--14b16---------|--14b16------16------16--
D|--------------------------------------14v--|-----------14v--|-------------------------
A|-------------------------------------------|----------------|-------------------------
E|-------------------------------------------|----------------|-------------------------



E|------------------------|-----------3--------|--------------------|------------------
B|--15------15------------|--------6-----------|--3--------3--------|--4-5--5--5--5h8--
G|------16------16b14r12--|--5b7v--------5b7v--|-----5b7v-----------|--4/5--5--5--5-5--
D|------------------------|--------------------|-----------------3--|------------------
A|------------------------|--------------------|--------------5-----|------------------
E|------------------------|--------------------|--------------------|------------------



E|----------------|------------------------|--------------------|-------------------|--
B|--8--8--8r5-----|------------------------|--------------------|-------------------|--
G|--5--5--5----5--|-------7--9-------------|--------------------|--------7h9r7h9r7--|--
D|----------------|--7/9--------9v--9\7r5--|--7-----5--7--7-----|-------------------|--
A|----------------|------------------------|-----7-----------5--|--7----------------|--
E|----------------|------------------------|--------------------|-----0-------------|--



E|--10-12-----------------|---------------------------------|--12--12------12--12--|--
B|--10/12--10/12----------|--10-----10------------10--10----|--9---10--12--9---10--|--
G|---------9--11--7----7--|--9-h11--9-------------9---11r9--|----------------------|--
D|----------------7h9--7--|-------------12--9h11------------|----------------------|--
A|------------------------|---------------------------------|----------------------|--
E|------------------------|---------------------------------|----------------------|--



E|--12--12--12--12--|---------|--|--
B|--12--9---12------|--9h10v--|--|--
G|------------------|---------|--|--
D|------------------|---------|--|--
A|------------------|---------|--|--
E|------------------|---------|--|--



E|--
B|--
G|--
D|--
A|--
E|--
http://www.guitartabcreator.com
Guitar Tab Creator is intended to store guitar tab created through the tool. It currently does not support in-line text editing. Any text you place in here will be lost. If you need to comment on your tab, please use the "Tab Notes" section located below.