Steely Dan Reelin' In the Years style intro part 2

(/) Slide Up  (\) Slide Down  (h) Hammer On  (p) Pull Off  (b) Bend (r) Release (v) Vibrato


E|--10/15v--15--15------15--15\14--14--14\12--12--12--12\10--10--10--10\9--9--9--9\7--
B|------------------------------------------------------------------------------------
G|------------------16----------------------------------------------------------------
D|------------------------------------------------------------------------------------
A|------------------------------------------------------------------------------------
E|------------------------------------------------------------------------------------



E|--7--7--7\5--5--5--5\3--3--3--3p0--3-----------------------------------------------------
B|--------------------------------------3-----3-----------------------------------------2--
G|-----------------------------------------4----------------------------5b6-------------2--
D|-----------------------------------------------5-----5-----------5/7------------------2--
A|--------------------------------------------------5-----2--2--2------------7--7--5\4--0--
E|-----------------------------------------------------------------------------------------
http://www.guitartabcreator.com
Guitar Tab Creator is intended to store guitar tab created through the tool. It currently does not support in-line text editing. Any text you place in here will be lost. If you need to comment on your tab, please use the "Tab Notes" section located below.