Steely Dan Reelin' In the Years style intro

(/) Slide Up  (\) Slide Down  (h) Hammer On  (p) Pull Off  (b) Bend (r) Release (v) Vibrato


E|----------------5v--5-----5h7--5v----------5--5--5-------------------------
B|--7p6p5--5h6h7---------7-----------5--5h7-----------5h7--5v--5--7----------
G|-------------------------------------------------------------------5b6-----
D|---------------------------------------------------------------------------
A|------------------------------------------------------------------------7--
E|---------------------------------------------------------------------------



E|-----------------------|------------------|------------------|------------------|--
B|-----------------------|------------------|------------------|------------------|--
G|-----------------------|------------------|------------------|------------------|--
D|-------7v--7--7h9--9v--|--9--9h10r9r7--9--|--9--9h10r9r7--9--|--9--9h10r9r7--9--|--
A|--7/9------------------|------------------|------------------|------------------|--
E|-----------------------|------------------|------------------|------------------|--



E|--------------------------|---------------------------3-------7--------10v--|--
B|--------------------------|------------------------3------------------------|--
G|--------------------------|----------------2--3/4--------5/7-----7/11-------|--
D|--7-----------------------|-------------2-----------------------------------|--
A|--7h9--7h9--7--5\4--------|-----0--3/4--------------------------------------|--
E|--------------------5--0--|--2----------------------------------------------|--



E|--
B|--
G|--
D|--
A|--
E|--
http://www.guitartabcreator.com
Guitar Tab Creator is intended to store guitar tab created through the tool. It currently does not support in-line text editing. Any text you place in here will be lost. If you need to comment on your tab, please use the "Tab Notes" section located below.