Steely Dan - Kid Charlemagne - solo part 2 of 2

(/) Slide Up  (\) Slide Down  (h) Hammer On  (p) Pull Off  (b) Bend (r) Release (v) Vibrato


E|---------------8-----10-----10/12------8----10--|------8-----8------------------|--
B|--8-----10-------------------------10-----------|--11-----9-----8---------------|--
G|-----9------9-----9------9----------------------|------------------9------------|--
D|------------------------------------------------|---------------------10r9--8v--|--
A|------------------------------------------------|-------------------------------|--
E|------------------------------------------------|-------------------------------|--



E|--------------------------------------|--8-------------------------|--------------
B|----------5------------------8-----8--|-----10b12--10--------------|--------------
G|-------5-----5--7r5-------7-----7-----|----------------9--7--7h9v--|-----7-----9--
D|--6/7----------------7/9--------------|----------------------------|--7-----7-----
A|--------------------------------------|----------------------------|--------------
E|--------------------------------------|----------------------------|--------------



E|-----------------------|-----------------------------8--10--10b11b10r8-------|--
B|-----------------------|-------------------8--9--10---------------------11v--|--
G|-----7-----9-----------|-------9--------9------------------------------------|--
D|--7-----7-----------7--|--8/9-----9/10---------------------------------------|--
A|--------------7h10-----|-----------------------------------------------------|--
E|-----------------------|-----------------------------------------------------|--



E|-----------------|-----------------------|--|--
B|--11b10r8--------|-----------------------|--|--
G|-----------8b9v--|--7b9h14r7--5h7r5--5v--|--|--
D|-----------------|-----------------------|--|--
A|-----------------|-----------------------|--|--
E|-----------------|-----------------------|--|--
http://www.guitartabcreator.com
Guitar Tab Creator is intended to store guitar tab created through the tool. It currently does not support in-line text editing. Any text you place in here will be lost. If you need to comment on your tab, please use the "Tab Notes" section located below.