Steely Dan - Kid Charlemagne - solo part 1 of 2

(/) Slide Up  (\) Slide Down  (h) Hammer On  (p) Pull Off  (b) Bend (r) Release (v) Vibrato


E|------------------------|-------------8--10b12b10r8--10r8------|--8/10\8v--|--
B|--5---------------------|-------8h10-----------------------10--|-----------|--
G|--7b9b7r5-----9b7b9b7v--|--5/9---------------------------------|-----------|--
D|-----------7------------|--------------------------------------|-----------|--
A|------------------------|--------------------------------------|-----------|--
E|------------------------|--------------------------------------|-----------|--



E|----------------10/11--14--11--14--|--14b15--14v----------12--14b15b14r12--|--
B|--------10--13---------------------|--------------12--15-------------------|--
G|--9/10-----------------------------|---------------------------------------|--
D|-----------------------------------|---------------------------------------|--
A|-----------------------------------|---------------------------------------|--
E|-----------------------------------|---------------------------------------|--



E|---------------------------------17v--17b19b17r15--|--17--15------15-----------|--
B|---------15--17------15------15--------------------|----------15------17-------|--
G|--12/14----------14------14------------------------|----------------------16v--|--
D|---------------------------------------------------|---------------------------|--
A|---------------------------------------------------|---------------------------|--
E|---------------------------------------------------|---------------------------|--



E|----------------15--19r15--17h19--14------------------------15--|--17b19--17v--
B|--------15--17------------------------15------------15--17------|--------------
G|--9/16------------------------------------16r14h16--------------|--------------
D|----------------------------------------------------------------|--------------
A|----------------------------------------------------------------|--------------
E|----------------------------------------------------------------|--------------



E|--0--5--7b8--7--5--7--|--5/7----------10-----------|--
B|----------------------|-------8-----------8v-------|--
G|----------------------|----------9r7----------8/9--|--
D|----------------------|----------------------------|--
A|----------------------|----------------------------|--
E|----------------------|----------------------------|--



E|--
B|--
G|--
D|--
A|--
E|--
http://www.guitartabcreator.com
Guitar Tab Creator is intended to store guitar tab created through the tool. It currently does not support in-line text editing. Any text you place in here will be lost. If you need to comment on your tab, please use the "Tab Notes" section located below.