Steely Dan - Kid Charlemagne outro solo pg 2 of 2

(/) Slide Up  (\) Slide Down  (h) Hammer On  (p) Pull Off  (b) Bend (r) Release (v) Vibrato


E|-------------------------------8--11b13--|--11r8--10r8---------8---------------------8--|--
B|--13--15------13h15--13v--8/9------------|--------------10--8-----10r8---------8--8-----|--
G|----------14-----------------------------|------------------------------10b12-----------|--
D|-----------------------------------------|----------------------------------------------|--
A|-----------------------------------------|----------------------------------------------|--
E|-----------------------------------------|----------------------------------------------|--



E|----------------------------8--8v---------|--13b15b13----------15b17b15----------|--
B|-------------------------8---------10--8--|------------13--13------------13--13--|--
G|--10b11r8------5--7r5/9-------------------|--------------------------------------|--
D|-----------10-----------------------------|--------------------------------------|--
A|------------------------------------------|--------------------------------------|--
E|------------------------------------------|--------------------------------------|--



E|--18b20b18----------20--20--20--|--
B|--------------------------------|--
G|------------17--17--------------|--
D|--------------------------------|--
A|--------------------------------|--
E|--------------------------------|--



E|--
B|--
G|--
D|--
A|--
E|--
http://www.guitartabcreator.com
Guitar Tab Creator is intended to store guitar tab created through the tool. It currently does not support in-line text editing. Any text you place in here will be lost. If you need to comment on your tab, please use the "Tab Notes" section located below.