Steely Dan - Kid Charlemagne outro solo pg 1 of 2

(/) Slide Up  (\) Slide Down  (h) Hammer On  (p) Pull Off  (b) Bend (r) Release (v) Vibrato


E|--------------------|------------------------|-------------|-----------------------
B|--10-----8-------6--|--6--6--8--4b5v--10-----|--8-------6--|--6--6--8-------8--10--
G|--12b14--10b12v-----|-----------------12b14--|--10b12v-----|-----------8/9---------
D|--------------------|------------------------|-------------|-----------------------
A|--------------------|------------------------|-------------|-----------------------
E|--------------------|------------------------|-------------|-----------------------



E|--8---------|--8------8v--8------10b12--|--10b11--10r8------8------------8--8v--|--
B|-----11b13--|-----10---------10---------|---------------10-----10--8h10---------|--
G|------------|---------------------------|---------------------------------------|--
D|------------|---------------------------|---------------------------------------|--
A|------------|---------------------------|---------------------------------------|--
E|------------|---------------------------|---------------------------------------|--



E|--------8--11b13--11b12--11--10--8--|--8v------8--15b18--15--14--13-------|--
B|--9/10------------------------------|------10------------------------16v--|--
G|------------------------------------|-------------------------------------|--
D|------------------------------------|-------------------------------------|--
A|------------------------------------|-------------------------------------|--
E|------------------------------------|-------------------------------------|--



E|--13--14--15-------------------18b20--|--15--16--17-------------17-----------------------|-----
B|--------------13v------13--13---------|--------------16/17--20---------------------------|-----
G|-------------------14-----------------|-----------------------------17--------------17v--|-----
D|--------------------------------------|---------------------------------19--17--19-------|-----
A|--------------------------------------|--------------------------------------------------|-----
E|--------------------------------------|--------------------------------------------------|-----



E|-----------------20-------|-----------------------------------------------------------
B|----------20b21------20v--|--18--19--20------------------------------------16/17--20--
G|--------------------------|--------------19b21--17---------17------19-----------------
D|--19--17------------------|-------------------------19r17------17------17-------------
A|--------------------------|-----------------------------------------------------------
E|--------------------------|-----------------------------------------------------------



E|--17--20v--|--17--20\19--20v--17--20\19--|--20--17--20\19---------|--
B|-----------|-----------------------------|-----------------16b15--|--
G|-----------|-----------------------------|------------------------|--
D|-----------|-----------------------------|------------------------|--
A|-----------|-----------------------------|------------------------|--
E|-----------|-----------------------------|------------------------|--
http://www.guitartabcreator.com
Guitar Tab Creator is intended to store guitar tab created through the tool. It currently does not support in-line text editing. Any text you place in here will be lost. If you need to comment on your tab, please use the "Tab Notes" section located below.