Steely Dan - Bodhisattva - solo - part two

(/) Slide Up  (\) Slide Down  (h) Hammer On  (p) Pull Off  (b) Bend (r) Release (v) Vibrato


E|-------------------|--------------------------|-------------------------|--
B|-------------------|--------------------------|-------------------------|--
G|--6--5--3h4--------|--------------------------|-------------------------|--
D|-------------5--0--|--3-----------------------|-------------------------|--
A|-------------------|-----5--4--3--5--4--3--1--|--2-----------1/2-----2--|--
E|-------------------|--------------------------|-----3--1--3-------3-----|--



E|----------------------|---------6--|------------|-----------|--------|-------------|--
B|----------------------|---------6--|--6\3--3/5--|-----------|--------|-------------|--
G|----------------------|---------0--|------------|--5--2-----|--------|-------------|--
D|----------------------|------------|------------|--------3--|--------|-------------|--
A|--3--2--3--4----4--5--|--3h4h5-----|------------|-----------|--5--3--|--1--0-------|--
E|----------------------|------------|------------|-----------|--------|----------1--|--



E|------------|----------|-------------|----------|-----------|-----------|--------------|--
B|------------|----------|-------5--8--|--5/6-----|-----------|-----------|--------------|--
G|------------|-------3--|--3/6--------|-------7--|--5--3-----|-----------|--2--5--2--3--|--
D|------------|--3/5-----|-------------|----------|--------5--|--------3--|--------------|--
A|-----1h3/6--|----------|-------------|----------|-----------|--6--5-----|--------------|--
E|--3---------|----------|-------------|----------|-----------|-----------|--------------|--



E|-----------------------|-----------------------------|-------------------------|--
B|-----------------------|-------3--5--3--5h6r5--3-----|-------------------------|--
G|--4--------------3--5--|--2/4---------------------0--|--5--3h4-----------------|--
D|-----5--3--4--5--------|-----------------------------|----------5--4--3--------|--
A|-----------------------|-----------------------------|-------------------5--4--|--
E|-----------------------|-----------------------------|-------------------------|--



E|-----
B|-----
G|-----
D|-----
A|-----
E|-----



E|-------------------------|-----------------------|------------------------------------------
B|-------------------------|-----------------------|---------------------------------------3--
G|-------------------------|-----------------------|---------------------------3--5--3--4-----
D|-------------------------|-----5-----5-----2--3--|--5-----------3--5--3h4h5-----------------
A|--3--1/2-----2--3--2--3--|--5-----5-----5--------|-----3--4--5------------------------------
E|----------3--------------|-----------------------|------------------------------------------



E|--
B|--
G|--
D|--
A|--
E|--
http://www.guitartabcreator.com
Guitar Tab Creator is intended to store guitar tab created through the tool. It currently does not support in-line text editing. Any text you place in here will be lost. If you need to comment on your tab, please use the "Tab Notes" section located below.