Steely Dan - Bodhisattva - solo - part one

(/) Slide Up  (\) Slide Down  (h) Hammer On  (p) Pull Off  (b) Bend (r) Release (v) Vibrato


E|------------|-----3-----3--3--|--------------|-------------------|-------------------
B|--3--5h6r5--|--3-----3--------|--6--3--------|-------------------|-------------------
G|------------|-----------------|-----------5--|--3h4--------------|-------------------
D|------------|-----------------|--------5-----|-------5--0--3--5--|--5---------3h4h5--
A|------------|-----------------|--------------|-------------------|-----3h4h5---------
E|------------|-----------------|--------------|-------------------|-------------------



E|---------|----------------5--3-----|--5--3--5h6r5--3-----|--5--4--3----------------|--
B|---------|--3h4h5--3h4h5--------5--|------------------5--|-----------3--6r3--5--4--|--
G|--3h4h5--|-------------------------|---------------------|-------------------------|--
D|---------|-------------------------|---------------------|-------------------------|--
A|---------|-------------------------|---------------------|-------------------------|--
E|---------|-------------------------|---------------------|-------------------------|--



E|----------------------|---------------------|----------------------|--------------------|--
B|--3-------------------|---------------------|----------------------|--------------------|--
G|-----5--4--3--4-------|---------3-----------|----------------------|-----------------2--|--
D|-----------------5\4--|--3h4h5-----5--------|----------------2--0--|-----------2--3-----|--
A|----------------------|---------------6--5--|--4--0--0--3/4--------|--3--4--5-----------|--
E|----------------------|---------------------|----------------------|--------------------|--



E|----------------------|--------------2/3-----3--|--6--5--4--3--4/5-----5--6--|--
B|----------------------|-----------4-------4-----|-------------------6--------|--
G|--5--4--3--2----5--4--|--3--2--3----------------|----------------------------|--
D|----------------------|-------------------------|----------------------------|--
A|----------------------|-------------------------|----------------------------|--
E|----------------------|-------------------------|----------------------------|--



E|--7-----5-----3-----|-----------------|----------------------|--
B|-----8-----6-----3--|--6--5-----3-----|----------------------|--
G|--------------------|--------5-----3--|--6--5--3h4-----------|--
D|--------------------|-----------------|-------------5--0--3--|--
A|--------------------|-----------------|----------------------|--
E|--------------------|-----------------|----------------------|--



E|--
B|--
G|--
D|--
A|--
E|--
http://www.guitartabcreator.com
Guitar Tab Creator is intended to store guitar tab created through the tool. It currently does not support in-line text editing. Any text you place in here will be lost. If you need to comment on your tab, please use the "Tab Notes" section located below.