SRV - Tightrope style solo - part 1

(/) Slide Up  (\) Slide Down  (h) Hammer On  (p) Pull Off  (b) Bend (r) Release (v) Vibrato


E|-----------------|-------------|--------7------------------------------------|--
B|-----------------|-------------|--------7------------------7-----------------|--
G|-------6-----6---|--11b9--7b8--|--9b11-----11b9p7----------7b8---------------|--
D|-------7-----7v--|-------------|-------------------9p7--9-------9p7----------|--
A|--7/9-----9------|-------------|-------------------------------------9--7\6--|--
E|-----------------|-------------|---------------------------------------------|--



E|----------7--------------7--------------|-----------7------------10-------------------
B|--10b12v-----7--------7-----------------|--------7-----7--10/12------12--12v--12--12--
G|----------------9b11--------9--7v-------|--9b11---------------------------------------
D|-----------------------------------9\6--|---------------------------------------------
A|----------------------------------------|---------------------------------------------
E|----------------------------------------|---------------------------------------------



E|--10--12--10b11----------10--12b14--12b14b12p10-----------10b11-----------7--10b12--
B|-----------------12--12--------------------------12--12v---------12p10\7------------
G|------------------------------------------------------------------------------------
D|------------------------------------------------------------------------------------
A|------------------------------------------------------------------------------------
E|------------------------------------------------------------------------------------



E|--10b11--7------------------7-----------------------------------|--
B|------------10--7--------7-----7--10p7--------7-----------------|--
G|-------------------9b10-----------------9b10-----10b9p7-----7v--|--
D|---------------------------------------------------------9------|--
A|----------------------------------------------------------------|--
E|----------------------------------------------------------------|--



E|--
B|--
G|--
D|--
A|--
E|--
http://www.guitartabcreator.com
Guitar Tab Creator is intended to store guitar tab created through the tool. It currently does not support in-line text editing. Any text you place in here will be lost. If you need to comment on your tab, please use the "Tab Notes" section located below.