SRV Testify style lick 2 - end of first incomplete solo

(/) Slide Up  (\) Slide Down  (h) Hammer On  (p) Pull Off  (b) Bend (r) Release (v) Vibrato


E|------12h14r12----------12-----------------------------------------------------------
B|--12------------15--12------12-------------------------------------------------------
G|--------------------------------14b16--16b14--12----------12------12--16b14--12------
D|--------------------------------------------------14--14------14-----------------14--
A|-------------------------------------------------------------------------------------
E|-------------------------------------------------------------------------------------



E|-----------------------------------------------------------------------------
B|------------------------------------------------------------------------15v--
G|-----------------------------------------------12v--12------------------14---
D|--12h14--12------------------------12--14--14-----------14--12----------13---
A|-------------14--12h13r12---------------------------------------14--14--14---
E|---------------------------15--12--------------------------------------------
http://www.guitartabcreator.com
Guitar Tab Creator is intended to store guitar tab created through the tool. It currently does not support in-line text editing. Any text you place in here will be lost. If you need to comment on your tab, please use the "Tab Notes" section located below.