SRV Testify style lick

(/) Slide Up  (\) Slide Down  (h) Hammer On  (p) Pull Off  (b) Bend (r) Release (v) Vibrato


E|-----------------------------|-------------12-----------------------------------------------|--
B|-----------------------------|---------12------15--------------------12---------------------|--
G|--16r14r12------12v----------|--14b16--------------14b15--14r12--14-------------------------|--
D|------------14-------14------|-------------------------------------------14r12------12--14--|--
A|-------------------------14--|--------------------------------------------------14----------|--
E|-----------------------------|--------------------------------------------------------------|--



E|-------------12------12--15b17--15v--12h14r12----------12------------------------------------
B|---------12------12----------------------------15--12------12--------------------------------
G|--14b16--------------------------------------------------------14b16--16b14--12----------12--
D|---------------------------------------------------------------------------------14--14------
A|---------------------------------------------------------------------------------------------
E|---------------------------------------------------------------------------------------------



E|---------------------------|-------------12---------12---------12---------12---------12--
B|---------------------------|---------12------15b17------15b17------15b17------15b17------
G|--14b16v--16b14v--14--12v--|--14b16------------------------------------------------------
D|---------------------------|-------------------------------------------------------------
A|---------------------------|-------------------------------------------------------------
E|---------------------------|-------------------------------------------------------------



E|--
B|--
G|--
D|--
A|--
E|--
http://www.guitartabcreator.com

Stopped before completion.

Stopped before completion. Saved so I wouldn't lose this.

Will label the remainder "2"

Guitar Tab Creator is intended to store guitar tab created through the tool. It currently does not support in-line text editing. Any text you place in here will be lost. If you need to comment on your tab, please use the "Tab Notes" section located below.