SRV - Riviera Paradise - intro page 2 of 2

(/) Slide Up  (\) Slide Down  (h) Hammer On  (p) Pull Off  (b) Bend (r) Release (v) Vibrato


E|----------------------|--3-----------------------------------|-----------------|--
B|-------5-----5--5--4--|--3----3--4--3h4r3-----------------3--|--------4--3--1--|--
G|-------4-----4--4--3--|--3-----------------3-----------3-----|--------3--2--2--|--
D|-------5-----5--5--4--|--5--------------------5-----5--------|--------2--1--1--|--
A|----------------------|--6-----------------------6-----------|-----------2--2--|--
E|--0h3-----3-----------|--------------------------------------|--2--2-----------|--



E|-------------------------|--12---------------|--
B|-------------------12----|-------------------|--
G|-------------12----------|------------0------|--
D|-------12----------------|-------------------|--
A|-------------------------|-------------------|--
E|--0----------------------|-------------------|--



E|--
B|--
G|--
D|--
A|--
E|--
http://www.guitartabcreator.com
Guitar Tab Creator is intended to store guitar tab created through the tool. It currently does not support in-line text editing. Any text you place in here will be lost. If you need to comment on your tab, please use the "Tab Notes" section located below.