SRV - Riviera Paradise - intro page 1 of 2

(/) Slide Up  (\) Slide Down  (h) Hammer On  (p) Pull Off  (b) Bend (r) Release (v) Vibrato


E|--10--12--10--8--10--8--6--8--6---------------------------0----0----|--6--8--8/11--9--
B|--10----------8---------6--------8-9--7----------------0-------0----|--6--------------
G|--10----------8---------6--------7/8--8-------------0----------0----|--6--------------
D|---------------------------------6-7--7----------4-------------4----|-----------------
A|----------------------------------------------7----------------7----|-----------------
E|---------------------------------7-8--8----7-------------------0----|-----------------



E|--7-------------------------------------------------------------|--7---7---7---7---7--
B|-----10--9/10--8--7----------7----6/7--7--7--------10-----11----|--8---7---7---7---7--
G|---------8-9---------9-------8----7-8--8--8------------9--------|--9---9---7---8---7--
D|---------7-8-----------------6----5-6--6--6---------------------|--10--10--10--10--9--
A|---------8-9----------------------------------------------------|------------------7--
E|--------------------------7-------6-7--7--7--7/10---------------|------------------0--



E|-------------------------------|-------------------------------|--------------------------
B|-----7h8r7------------------7--|----------7--------------------|---------7h8r7------------
G|------------7------------7-----|----------6--------------------|---------7------7---------
D|---------------9------9--------|----------7---------7--7h9--7--|-------------------9------
A|------------------10-----------|---------------7/9-------------|-----10---------------10--
E|--0----------------------------|--0h5--5-----------------------|--0-----------------------



E|-----------|----------------------------|------------------------------------|--
B|--------7--|----------7-----7-----7--6--|--5--5--6--5h6r5-----------------5--|--
G|-----7-----|----------6-----6-----6--5--|--5---------------5-----------5-----|--
D|--9--------|----------7-----7-----7--6--|--7------------------7-----7--------|--
A|-----------|----------------------------|--8---------------------8-----------|--
E|-----------|--0h5--5-----5-----5-----4--|------------------------------------|--



E|---------------------------------|------------------------------------|--
B|----------5-----5-----5----------|-----5-----5h6r5--------------5-----|--
G|----------4-----4-----4----------|-----5-----5------5--------5-----5--|--
D|----------5-----5-----5-------5--|-----7--5---------5-----7-----------|--
A|-------------------------5/7-----|--8------------------8--------------|--
E|--0h3--3-----3-----3-------------|------------------------------------|--



E|--
B|--
G|--
D|--
A|--
E|--
http://www.guitartabcreator.com
Guitar Tab Creator is intended to store guitar tab created through the tool. It currently does not support in-line text editing. Any text you place in here will be lost. If you need to comment on your tab, please use the "Tab Notes" section located below.