SRV - Pride and Joy unplugged style solo part 1

(/) Slide Up  (\) Slide Down  (h) Hammer On  (p) Pull Off  (b) Bend (r) Release (v) Vibrato


E|--3/4--4--4--3/4--4--4--3/4--4--4--3/4--4--4-----7-----7--7--7-----7-----7--7--7--
B|--2-3--3--3--2-3--3--3--2-3--3--3--2-3--3--3-----7-----7--7--7-----7-----7--7--7--
G|--3-4--4--4--3-4--4--4--3-4--4--4--3-4--4--4-----7-----7--7--7-----7-----7--7--7--
D|--0----------0----------0----------0-------------6-----6--6--6-----6-----6--6--6--
A|-------------------------------------------------7-----7--7--7-----7-----7--7--7--
E|----------------------------------------------0-----0-----------0-----0-----------



E|--12--12----12----12--12--12----12--12--12----12--12--12--10--10--10--9---9---9---
B|--10--10----10----10--10--10----10--10--10----10--10--10--12--12--12--10--10--10--
G|--11--11----11----11--11--11----11--11--11----11--11--11--------------------------
D|--12--12----12----12--12--12----12--12--12----12--12--12--------------------------
A|----------------------------------------------------------------------------------
E|----------------------------------------------------------------------------------



E|--7--7--7--5--5--5--------------------------3--3---------------------------------------0--
B|--8--8--8--5--5--5--------------------------2--2---------------------------------3--------
G|--------------------------------2--2--2--2--2--2--------2--2--2----2--------3/4-----4-----
D|--------------------2--2--2--2--2--2--4--2--2--2--------2--2--2h4--2----------------------
A|--------------------0--0--3--4--------------------3--4------------------------------------
E|----------------------------------------------------------------------0--0----------------



E|------------------------0-------0--------------------------------0-----0-----0--0--3/4--0-----
B|-----3---------------------3/5-----------------------------------------------0-------------0--
G|--4-----4\2--0-----0h1-------------0h1--0h1--0h1-----------------------------2----------------
D|----------------2---------------------------------------------------2--------1----------------
A|-----------------------------------------------------0--1--2--2-----------2-------------------
E|--------------------------------------------------3-------------------------------------------



E|--
B|--
G|--
D|--
A|--
E|--
http://www.guitartabcreator.com
Guitar Tab Creator is intended to store guitar tab created through the tool. It currently does not support in-line text editing. Any text you place in here will be lost. If you need to comment on your tab, please use the "Tab Notes" section located below.