SRV - Mary Had A Little Lamb solo pg 2 of 2

(/) Slide Up  (\) Slide Down  (h) Hammer On  (p) Pull Off  (b) Bend (r) Release (v) Vibrato


E|--17--15b16-----------------------------------|-------------------------------------|--
B|-------------17--15---------------------------|-------------------------------------|--
G|---------------------16--15--14b15b14r12------|--12v---------------------12--14b15--|--
D|------------------------------------------14--|-------14r12------12--14-------------|--
A|----------------------------------------------|--------------14---------------------|--
E|----------------------------------------------|-------------------------------------|--



E|------12----------14--12h13r12------12----------|-------------12-----------------------
B|--12------15--12----------------15------15--12--|---------12---------------------------
G|------------------------------------------------|--14b15----------15r12--14b15r14------
D|------------------------------------------------|----------------------------------14--
A|------------------------------------------------|--------------------------------------
E|------------------------------------------------|--------------------------------------



E|-------------|-----------------------------|--
B|-------------|--0--------------------------|--
G|-------------|--0--0--2--0-----------------|--
D|--12--14-----|--------------2--0--2--------|--
A|-------------|-----------------------------|--
E|----------0--|-----------------------14\5--|--



E|--
B|--
G|--
D|--
A|--
E|--
http://www.guitartabcreator.com
Guitar Tab Creator is intended to store guitar tab created through the tool. It currently does not support in-line text editing. Any text you place in here will be lost. If you need to comment on your tab, please use the "Tab Notes" section located below.