SRV - Mary Had A Little Lamb solo pg 1 of 2

(/) Slide Up  (\) Slide Down  (h) Hammer On  (p) Pull Off  (b) Bend (r) Release (v) Vibrato


E|------------------------|--12--12--12--12--12--12--12--|-------------------------------|--
B|--15b17v----------------|------------------------------|--12---------------------------|--
G|----------14b15r12------|------12--14--14--12--14--14--|--12b13------------------------|--
D|--------------------14--|--14--------------------------|---------14r12------12--14-----|--
A|------------------------|------------------------------|----------------14-------------|--
E|------------------------|------------------------------|----------------------------0--|--



E|----------------------------12-------|-------------15---------------------------------------|--
B|-------------12--12--15b16------12v--|--12--15/17------17v----------------------------------|--
G|--12--14b15--------------------------|----------------------14--14--12v---------------------|--
D|-------------------------------------|-----------------------------------14r12------12--14--|--
A|-------------------------------------|------------------------------------------14----------|--
E|-------------------------------------|------------------------------------------------------|--



E|------------------------12--------------15--17b19--15--17r15-----------|--15--17b18--17b19--
B|-------------12--15b16------12--15--17------------------------17v--17--|--------------------
G|--12--14b15------------------------------------------------------------|--------------------
D|-----------------------------------------------------------------------|--------------------
A|-----------------------------------------------------------------------|--------------------
E|-----------------------------------------------------------------------|--------------------



E
Guitar Tab Creator is intended to store guitar tab created through the tool. It currently does not support in-line text editing. Any text you place in here will be lost. If you need to comment on your tab, please use the "Tab Notes" section located below.