SRV - Lenny style outro part 2 of 2

(/) Slide Up  (\) Slide Down  (h) Hammer On  (p) Pull Off  (b) Bend (r) Release (v) Vibrato


E|--12-----18--19--17--12-----12----------------------------------------------
B|--12h14--18--19--17--12h14--12--12--12--12--12--12------12------------------
G|--------------------------------11--13--11--13--11------11------------9h11--
D|----------------------------------------------------14------14--9h11--------
A|----------------------------------------------------------------------------
E|----------------------------------------------------------------------------



E|---------------------------------------------------------12------21--
B|--9----10----12--11----9--12---------------------------------12------
G|--9----9-----12--11----9--12-----------------------------------------
D|--9----11----12--11----9--12-------7-------5-------------------------
A|--------------------------7---7/9-----6/7----------7-----------------
E|----------------------------------------------7/9-----0--------------
http://www.guitartabcreator.com
Guitar Tab Creator is intended to store guitar tab created through the tool. It currently does not support in-line text editing. Any text you place in here will be lost. If you need to comment on your tab, please use the "Tab Notes" section located below.