SRV - Lenny style outro part 1 of 2

(/) Slide Up  (\) Slide Down  (h) Hammer On  (p) Pull Off  (b) Bend (r) Release (v) Vibrato


E|--9--7-------------------------------------------------------------------|--
B|--9-----7h9--7-------------5---------------------------------------------|--
G|--8-------------9----------6----------------------9h11p9-----------------|--
D|--9------------------------4-------------------9----------9h11--9h11-----|--
A|--7-----------------------------------7--9/11----------------------------|--
E|-------------------4/5--5--5--5--7/9----------------------------------0--|--



E|--12--9------------------------------------------------------------------------|--
B|---------12--9----------------------12---------12------------------------------|--
G|----------------12p11p9------11/13------11/13------13\11--9------9--11--9h11v--|--
D|-------------------------11----------------------------------11----------------|--
A|-------------------------------------------------------------------------------|--
E|-------------------------------------------------------------------------------|--



E|------------------------------------------------|--
B|------------------------------------------------|--
G|--9---------------------------------------------|--
D|-----11--9h11v--9h11--9-------------------------|--
A|-------------------------11\9--7----------7-----|--
E|----------------------------------9--7h9-----0--|--
http://www.guitartabcreator.com
Guitar Tab Creator is intended to store guitar tab created through the tool. It currently does not support in-line text editing. Any text you place in here will be lost. If you need to comment on your tab, please use the "Tab Notes" section located below.