SRV - Leave My Girl Alone style lick 1

(/) Slide Up  (\) Slide Down  (h) Hammer On  (p) Pull Off  (b) Bend (r) Release (v) Vibrato

E|----------7-------------------------------------------|--
B|-------7-----10p7-------------------------------------|--
G|--7/8--------------9b10b9--7v-------------------------|--
D|-------------------------------9--7-------------------|--
A|-------------------------------------9--7h8p7---------|--
E|-----------------------------------------------10--7--|--



E|---------------------------------------|--
B|---------------------------------------|--
G|-----------------------------------9v--|--
D|--7h9p7h9p7h9p7h9p7h9p7------------8---|--
A|---------------------------7--8/9--9---|--
E|---------------------------------------|--



E|--
B|--
G|--
D|--
A|--
E|--
http://www.guitartabcreator.com
Guitar Tab Creator is intended to store guitar tab created through the tool. It currently does not support in-line text editing. Any text you place in here will be lost. If you need to comment on your tab, please use the "Tab Notes" section located below.