SRV - The House Is Rockin' style solo tab

(/) Slide Up  (\) Slide Down  (h) Hammer On  (p) Pull Off  (b) Bend (r) Release (v) Vibrato


E|---------8---------8---------8---------8---------8---------8---------8--------------
B|---------8---------8---------8---------8---------8---------8---------8--------------
G|--10b12-----10b12-----10b12-----10b12-----10b12-----10b12-----10b12-----10b12b10r8--
D|------------------------------------------------------------------------------------
A|------------------------------------------------------------------------------------
E|------------------------------------------------------------------------------------



E|------------------------------------------------------------------------------------------
B|-------------------------------------------------------------8--8----------------------8--
G|----------8--10--10b11--10v--8------8--11b10--8--------------8--9-----------------8h9-----
D|--10--10------------------------10---------------10--10--10--------10------7--10----------
A|-----------------------------------------------------------------------10-----------------
E|------------------------------------------------------------------------------------------



E|-----------------------------------------------------------------------------------
B|-----------------------------------------------------------------------------------
G|--10------8--9------8--10--11b10--8-----------8------11b10--8--10--8b9------8------
D|------10--------10------------------------------------------------------10---------
A|-------------------------------------10v--10-----10----------------------------10--
E|-----------------------------------------------------------------------------------



E|-----------------------------8--8------8--8------8---------11--11--11--11--11--
B|---------8---------8---------8--8------8--8------8---------11--11--11--11--11--
G|--10b12-----10b12-----10b12-----10b12-----10b12-----10b12----------------------
D|-------------------------------------------------------------------------------
A|-------------------------------------------------------------------------------
E|-------------------------------------------------------------------------------



E|---------11--11--11--11--11------------------------------------------------------------
B|---------11--11--11--11--11----------------11------11--11------11------11------11--11--
G|--10b12------------------------------------10------10--10------10------10------10--10--
D|-------------------------------------------9-------9---9-------9-------9-------9---9---
A|-----------------------------10--8/10--10------10----------10------10------10----------
E|---------------------------------------------------------------------------------------



E|--
B|--
G|--
D|--
A|--
E|--
http://www.guitartabcreator.com
Guitar Tab Creator is intended to store guitar tab created through the tool. It currently does not support in-line text editing. Any text you place in here will be lost. If you need to comment on your tab, please use the "Tab Notes" section located below.