SRV - Honey Bee style intro

(/) Slide Up  (\) Slide Down  (h) Hammer On  (p) Pull Off  (b) Bend (r) Release (v) Vibrato


E|----------7---------9--7h8r7------7---------|----------5--7--6--5----------------------
B|-------7-----10--7------------10-----10--7--|-------5--------------8--5----------------
G|--7h8---------------------------------------|--5h6-----------------------4\2--0-----2--
D|--------------------------------------------|------------------------------------2-----
A|--------------------------------------------|------------------------------------------
E|--------------------------------------------|------------------------------------------



E|----------------3-4--4--4--3-4--4------------------------------3--2--
B|----------------2-3--3--3--2-3--3------------------------------3--2--
G|--0h1r0--0h1r0--3/4--4--4--3/4--4--4\2--0-----0h1r0--0h1r0-----3--2--
D|-------------------------------------------2-------------------2--1--
A|------------------------------------------------------------3-----2--
E|---------------------------------------------------------------------



E|--
B|--
G|--
D|--
A|--
E|--
http://www.guitartabcreator.com
Guitar Tab Creator is intended to store guitar tab created through the tool. It currently does not support in-line text editing. Any text you place in here will be lost. If you need to comment on your tab, please use the "Tab Notes" section located below.