Santana - Black Magic Woman style licks

(/) Slide Up  (\) Slide Down  (h) Hammer On  (p) Pull Off  (b) Bend (r) Release (v) Vibrato


E|-----------------10-----------------------------|----------------12h13--12--13p12p10--
B|--13b15v--13b15------13p10----------------------|--------10--13-----------------------
G|----------------------------13b12p10--12p10\9v--|--9/10-------------------------------
D|------------------------------------------------|-------------------------------------
A|------------------------------------------------|-------------------------------------
E|------------------------------------------------|-------------------------------------



E|-------------------10-----10-------|----------10--12--13--15--15--15b17--17b15p13------13v--
B|--13b15--15b13p10--13b15--10-------|------11---------------------------------------15-------
G|------------------------------10v--|--12----------------------------------------------------
D|-----------------------------------|--------------------------------------------------------
A|-----------------------------------|--------------------------------------------------------
E|-----------------------------------|--------------------------------------------------------



E|--18b20\16--12--13p12p10--12--13p12p10---------10----------------------------10--
B|----------------------------------------13b15------13--10----------------12--10--
G|-----------------------------------------------------------12b13b12--10--12------
D|---------------------------------------------------------------------------------
A|---------------------------------------------------------------------------------
E|---------------------------------------------------------------------------------



E|--
B|--
G|--
D|--
A|--
E|--
http://www.guitartabcreator.com
Guitar Tab Creator is intended to store guitar tab created through the tool. It currently does not support in-line text editing. Any text you place in here will be lost. If you need to comment on your tab, please use the "Tab Notes" section located below.