The Rolling Stones - Brown Sugar - main riff chords used - plus one lick

(/) Slide Up  (\) Slide Down  (h) Hammer On  (p) Pull Off  (b) Bend (r) Release (v) Vibrato


E|---------------------------------------------------------------------|--
B|--13--12----5--6----8--8-----1--1----3--3----5--5----10--10----3--3--|--
G|--12--12----5--5----8--10----1--3----5--3----5--5----10--10----3--3--|--
D|--14--12----5--7----8--8-----1--1----3--3----5--7----10--12----3--5--|--
A|--12--12----5--5----8--8-----1--1----3--3----5--5----10--10----3--3--|--
E|---------------------------------------------------------------------|--



E|----------------------------------------------------
B|-------------------------------------5--5--6--5--6--
G|-------------0-------3/4-----5--3/4--5--5--5--5--5--
D|----------0-----3/5-------5----------5--5--7--5--7--
A|--0--3/4-----------------------------5--5--5--5--5--
E|----------------------------------------------------



E|--
B|--
G|--
D|--
A|--
E|--
http://www.guitartabcreator.com
Guitar Tab Creator is intended to store guitar tab created through the tool. It currently does not support in-line text editing. Any text you place in here will be lost. If you need to comment on your tab, please use the "Tab Notes" section located below.