Old Electric Blues - simple pattern

(/) Slide Up  (\) Slide Down  (h) Hammer On  (p) Pull Off  (b) Bend (r) Release (v) Vibrato


E|--------|-------------------------|-------------------------|-------------------------|--
B|--------|-----------------3--1-2--|-----------------3--1-2--|-----------------3--1-2--|--
G|--------|-----------------2--1/2--|-----------------2--1/2--|-----------------2--1/2--|--
D|-----2--|-----4-----5-------------|-----4-----5-------------|-----4-----5-------------|--
A|--0-----|--0-----0-----0----------|--0-----0-----0----------|--0-----0-----0----------|--
E|--------|-------------------------|-------------------------|-------------------------|--



E|-------------------------|--------------------------|-----------------------|--
B|-----------------3--2-3--|--------------------------|-----------------------|--
G|-----------------2--1/2--|-----4-----5-----4-----2--|--2--------------------|--
D|-----4-----5-------------|--0-----0-----0-----0-----|-----------------------|--
A|--0-----0-----0----------|--------------------------|-----------------------|--
E|-------------------------|--------------------------|-----2--2--3--3--4--4--|--



E|-------------------------------|-----------------------|--------------------------------|--
B|-----------------------3--1-2--|-----------------------|--------------------------------|--
G|-----------------------2--1/2--|-----------------------|--------------------------------|--
D|-----------4-----5-------------|-----4-----5--5--------|--------------------2-----------|--
A|-----0--0-----0-----0----------|--0-----0--------------|--------2--2--4--------------2--|--
E|--0----------------------------|-----------------0--0--|--3--4-----------0-----3--4-----|--



E|----------------|----------------------------|-----------------------------
B|-----3-----1-2--|-----------------3-----1-2--|-----------------3-----1-2v--
G|-----2-----1/2--|-----------------2-----1/2--|-----------------2-----1/2---
D|----------------|-----4-----5----------------|-----4-----5-----------------
A|--0-----0-------|--0-----0-----0-----0-------|--0-----0-----0-----0--------
E|----------------|----------------------------|-----------------------------



E|--
B|--
G|--
D|--
A|--
E|--
http://www.guitartabcreator.com
Guitar Tab Creator is intended to store guitar tab created through the tool. It currently does not support in-line text editing. Any text you place in here will be lost. If you need to comment on your tab, please use the "Tab Notes" section located below.