MTB - Heard It in a Love Song - style intro

(/) Slide Up  (\) Slide Down  (h) Hammer On  (p) Pull Off  (b) Bend (r) Release (v) Vibrato


E|--10--7------7-----------------------------------------------------------------------------
B|---------10-----7--------6/7--10--7--10/12------10-----7--8--10--8--7----------------------
G|-------------------9--7---------------------11------9------------------7--------7-------7--
D|--------------------------------------------------------------------------7--9-----7h9-----
A|-------------------------------------------------------------------------------------------
E|-------------------------------------------------------------------------------------------



E|--7--5-------------------------------------
B|--------6-----5----------------------------
G|-----------7-----7--4----------4-----------
D|-----------------------7r4--7--------------
A|----------------------------------7--5-----
E|----------------------------------------5--



E|--
B|--
G|--
D|--
A|--
E|--
http://www.guitartabcreator.com
Guitar Tab Creator is intended to store guitar tab created through the tool. It currently does not support in-line text editing. Any text you place in here will be lost. If you need to comment on your tab, please use the "Tab Notes" section located below.