MTB Heard it in a Love Song solo - guitar B

(/) Slide Up  (\) Slide Down  (h) Hammer On  (p) Pull Off  (b) Bend (r) Release (v) Vibrato


E|----------------------------------|--
B|-------------------------7--------|--
G|----------------7--7--9-----9--7--|--
D|----------7--9--------------------|--
A|--5--7/9--------------------------|--
E|----------------------------------|--



E|------------------------------------------------------------------------|--
B|-------------------7--8--7--------------------7--8--7-------------------|--
G|-------------7--7-----------9--7--------7--9-----------9--7-------7--7--|--
D|-------7--9-----------------------7--9-----------------------7h9--------|--
A|--7h9-------------------------------------------------------------------|--
E|------------------------------------------------------------------------|--
http://www.guitartabcreator.com
Guitar Tab Creator is intended to store guitar tab created through the tool. It currently does not support in-line text editing. Any text you place in here will be lost. If you need to comment on your tab, please use the "Tab Notes" section located below.