MTB Heard it in a Love Song Electric Guitar licks

(/) Slide Up  (\) Slide Down  (h) Hammer On  (p) Pull Off  (b) Bend (r) Release (v) Vibrato


E|--7--5-------------------------------------|--7--5--7--5---------------|--
B|--------6-----5----------------------------|--------------6\3-------3--|--
G|-----------7-----7--4----------4-----------|---------------------------|--
D|-----------------------7r4--7--------------|-------------------3/4-----|--
A|----------------------------------7--5-----|---------------------------|--
E|----------------------------------------5--|---------------------------|--



E|----12--10--9-------------------|--7--5--7--5----------------|--17---------17----------|--
B|---------------12--10-----------|--------------6-------------|------17b19------17--15--|--
G|-----------------------12r11----|-----------------7-------7--|-------------------------|--
D|--------------------------------|--------------------3/4-----|-------------------------|--
A|--------------------------------|----------------------------|-------------------------|--
E|--------------------------------|----------------------------|-------------------------|--



E|--
B|--
G|--
D|--
A|--
E|--
http://www.guitartabcreator.com
Guitar Tab Creator is intended to store guitar tab created through the tool. It currently does not support in-line text editing. Any text you place in here will be lost. If you need to comment on your tab, please use the "Tab Notes" section located below.