MTB Heard it in a Love Song Acoustic licks

(/) Slide Up  (\) Slide Down  (h) Hammer On  (p) Pull Off  (b) Bend (r) Release (v) Vibrato


E|-----------------10--9---9---9---7--5--3----------------|--|--
B|--------------7--12--10--10--10--8--7--5--3--5--5-7--3--|--|--
G|--------7--9--------------------------------------------|--|--
D|--7--9------------------------------------4--5--5/7--4--|--|--
A|--------------------------------------------------------|--|--
E|--------------------------------------------------------|--|--



E|--------------12--10--10--10--9---9---9---10--12--10--9-------------------|--|--
B|----------10--------------12--10--10--10--12------12--10-----10--8-----7--|--|--
G|------11-----------------------------------------------------11--9--7--7--|--|--
D|--12------------------------------------------------------9------------7--|--|--
A|-----------------------------------------------------------------------9--|--|--
E|--------------------------------------------------------------------------|--|--



E|--12--10--9--10--12--10--9------------------------------------------|--|--
B|----------------------------12--10--12--10--10----------------------|--|--
G|--------------------------------------------9-b10b9--7--------------|--|--
D|--------------------------------------------------------9--7--------|--|--
A|--------------------------------------------------------------9--5--|--|--
E|--------------------------------------------------------------------|--|--



E|--
B|--
G|--
D|--
A|--
E|--
http://www.guitartabcreator.com
Guitar Tab Creator is intended to store guitar tab created through the tool. It currently does not support in-line text editing. Any text you place in here will be lost. If you need to comment on your tab, please use the "Tab Notes" section located below.