Lynyrd Skynyrd - I Know A Little - style lick 1

(/) Slide Up  (\) Slide Down  (h) Hammer On  (p) Pull Off  (b) Bend (r) Release (v) Vibrato


E|-----------5--------5----------------|-------------5------------------------------|--
B|--5--8--5-----8b10-------------------|--5-------5-----8p5-------------------------|--
G|-----------------------8b7p5-----5v--|-----7b8-------------8b7p5-----5b6----------|--
D|------------------------------7------|----------------------------7-------7p5-----|--
A|-------------------------------------|-----------------------------------------7--|--
E|-------------------------------------|--------------------------------------------|--



E|-----8p5-----9p6-----10p7-----11p8-----12------------------------------|--
B|--5-------6-------7--------8--------9------12b14--10v------10--12b13v--|--
G|-------------------------------------------------------11--------------|--
D|-----------------------------------------------------------------------|--
A|-----------------------------------------------------------------------|--
E|-----------------------------------------------------------------------|--



E|--
B|--
G|--
D|--
A|--
E|--
http://www.guitartabcreator.com
Guitar Tab Creator is intended to store guitar tab created through the tool. It currently does not support in-line text editing. Any text you place in here will be lost. If you need to comment on your tab, please use the "Tab Notes" section located below.