John Fogerty - Swamp Water - very simple version for reddit request

(/) Slide Up  (\) Slide Down  (h) Hammer On  (p) Pull Off  (b) Bend (r) Release (v) Vibrato


E|-------------------2-----2-----------------3-----3----------------------2--2--
B|-------------------3-----3-----------------0-----0----------------------3--3--
G|-------------------2-----2--------------0--0-----0--0-----0--2----------2--2--
D|--------0--3b4--0--0-----0--------0--3-----0-----0-----3--------3b4--0--0--0--
A|--0--3----------------3-----0--3-----------2-----2----------------------------
E|-------------------------------------------3--3--3----------------------------



E|------------------------2--------2--
B|----------2--2----------3-----3--3--
G|----------2--2----------2-----2--2--
D|----------2--2--3b4--0--0--------0--
A|--3b4--0--0--0-------------3--3-----
E|------------------------------------



E|--
B|--
G|--
D|--
A|--
E|--
http://www.guitartabcreator.com
Guitar Tab Creator is intended to store guitar tab created through the tool. It currently does not support in-line text editing. Any text you place in here will be lost. If you need to comment on your tab, please use the "Tab Notes" section located below.