Jimi Hendrix - The Wind Cries Mary - solo

(/) Slide Up  (\) Slide Down  (h) Hammer On  (p) Pull Off  (b) Bend (r) Release (v) Vibrato


E|-----13\11--8--10---------8--|----8-------------------------------------|-----13\11--
B|--13h15-----8--10--8------8--|--8h10--8---------------------------------|--13h15-----
G|----------------------10-----|-----------10---------10--12--10h12v--10--|------------
D|-----------------------------|---------------10/12----------------------|------------
A|-----------------------------|------------------------------------------|------------
E|-----------------------------|------------------------------------------|------------



E|--8--10--8------8--|----------------------------------------|-----13\11--8--10--8------8--|--
B|--8--10--8------8--|----------------------------------------|--13h15-----8--10--8------8--|--
G|------------10-----|---------10h12--10v--10h12----------10--|----------------------10-----|--
D|-------------------|--10/12---------------------10h12v------|-----------------------------|--
A|-------------------|----------------------------------------|-----------------------------|--
E|-------------------|----------------------------------------|-----------------------------|--



E|------------------------|-----15--15--10--10--10---------10-----10\8--|--
B|------------------------|--15h17------10--12--10------10h12--10h12----|--
G|---------10h12----------|-------------------------12------------------|--
D|--10/12---------10h12v--|---------------------------------------------|--
A|------------------------|---------------------------------------------|--
E|------------------------|---------------------------------------------|--



E|--6--6----6--6---------------|------------------------9-------------|--
B|--6--6h8--6--6---------------|--12b14----9---------9----------------|--
G|--7--7----7--7h8--8--8--8r7--|--------------11b13--------11b13--9v--|--
D|-----------------------------|--------------------------------------|--
A|-----------------------------|--------------------------------------|--
E|-----------------------------|--------------------------------------|--



E|-----13--13------------------------------|-------------------------------------|--|--
B|--13h15--13--13--13--13------13------13--|-------------------------------------|--|--
G|-------------12--14--12------12--14--12--|----------10------10-----------------|--|--
D|-------------------------15--------------|--10--12------12--10-----------------|--|--
A|-----------------------------------------|----------------------13--12v--------|--|--
E|-----------------------------------------|-------------------------------15\5--|--|--



E|--
B|--
G|--
D|--
A|--
E|--
http://www.guitartabcreator.com
Guitar Tab Creator is intended to store guitar tab created through the tool. It currently does not support in-line text editing. Any text you place in here will be lost. If you need to comment on your tab, please use the "Tab Notes" section located below.