Jimi Hendrix - Little Wing - SRV style intro pg 2 of 2

(/) Slide Up  (\) Slide Down  (h) Hammer On  (p) Pull Off  (b) Bend (r) Release (v) Vibrato


E|--------------|--------------|------------------------------------------------|--------5--7--
B|--------------|--------------|------------------------------------------------|--------5--5--
G|--------------|--------------|------------------5-----5-------5----5----------|--------------
D|--------------|--0h2r0-------|----------5-----5h7--7--5h7--7--5h7--5----5--5--|--------------
A|-----0--0-----|--------------|-----5/7-----7--------------------------5h7--5--|--------------
E|--3--------3--|-----------0--|--3---------------------------------------------|--5--5--------



E|--5h7r5-----5-----5----------5---------------------------|-----------------12---------|--
B|--5------8--5--8--5-------5-----8-------8----------------|-------------12-------------|--
G|---------------------7b9-----------7b9-----7--5----------|---------12-----------------|--
D|-------------------------------------------------7-------|-----12---------------------|--
A|----------------------------------------------------5h7--|----------------------------|--
E|---------------------------------------------------------|--0--------------------0/7--|--



E|--7---------7--9--8r7---------7-----------------------|--0---------------------------------
B|--7--10--7-------------10--7-----10-------------------|--0-------------------5-----5-------
G|-------------------------------------9/10--9--7-------|--0--------------5h7--7--5--5----5--
D|-------------------------------------------------9\7--|-----------5----------------5--5h7--
A|------------------------------------------------------|-----5--7-----7---------------------
E|------------------------------------------------------|------------------------------------



E|---------------|--------5-7--7-5-----5-3-----3--3--------3--|--------------------|--
B|---------------|--------3-5--5-3-----3-1-----1--------1-----|--------------------|--
G|--5------------|--------4-6--6-4-----4-2-----2-----2--2-----|-----------5--------|--
D|--5---------5--|--------5/7--7\5--5--5\3--3--------3--------|-----------5--5-----|--
A|-----5h7--5h7--|--------------------------------------------|--3--3--3-----3--3--|--
E|---------------|--3--3--------------------------------------|--------------------|--



E|----------------------------------------------------|--
B|-------------7--------------------------------------|--
G|--5-7--------7--7-------7--7--7------------------7--|--
D|--5-7--7-----7--7--7--7h9--7--7--7-------7-------7--|--
A|--3/5--5--5--------0-------------10--10--7--7--7h9--|--
E|-------------------0-------------0------------------|--



E|--
B|--
G|--
D|--
A|--
E|--
http://www.guitartabcreator.com
Guitar Tab Creator is intended to store guitar tab created through the tool. It currently does not support in-line text editing. Any text you place in here will be lost. If you need to comment on your tab, please use the "Tab Notes" section located below.