Jimi Hendrix - Little Wing - SRV style intro pg 1 of 2

(/) Slide Up  (\) Slide Down  (h) Hammer On  (p) Pull Off  (b) Bend (r) Release (v) Vibrato


E|----12--|------------------------------|----------3h5--3--3------------------------|--
B|----12--|-------------------5--5-------|------------3-----3-------3--3--3----3-----|--
G|----12--|-----------------5h7--5-------|------------0-----------4h5--5--4h5--4-----|--
D|--------|--------------5----------5h7--|----------------------------------------5--|--
A|--------|---------5h7------------------|-------------------------------------------|--
E|--------|--0---------------------------|--2/3--3-------------3---------------------|--



E|---------------------------------------------------|--------3h5--3--3--------------------------
B|---------------------5------------------5----------|----------3--3--------------------------5--
G|-------------------5h7--5-------5-------5-------5--|----------0--0-----0-------5--5---------5--
D|-------------5-------------5h7--7-------5-------5--|---------------------------5--7--7/8\7--5--
A|-------5--7------------------------5h7-----5h7-----|----------------------5/7------------------
E|--3/5-----------0----------------------------------|--0--0-------------------------------------



E|----------7h9--9h10--7------7----------6-----|--5---------------------------------------
B|------------7--------7--10--7----------6-----|--5---------------------5-----------------
G|---------------------------------------------|--5--5--5-----5---------5h7r5-------5--5--
D|---------------------------------------------|-----7--7--7--5h7r5------------7--5h7--5--
A|--7------------------------------------------|---------------------7--------------------
E|-----5/7-----------------------5/6--6-----0--|------------------------------------------



E|------------------|--------5-7--7-5-----5-3--3--3-----|-----------------------------|--
B|------------------|--------3-5--5-3-----3-1--1--1--0--|-----------------------------|--
G|------------------|--------4-6--6-4-----4\2--2--2--0--|-----------5--------------5--|--
D|-------5----------|--------5/7--7\5--5-------3-----0--|--------------5--------------|--
A|--5h7--7--5h7--7--|-----------------------------------|--3--3--3--------3--3--3-----|--
E|------------------|--3--3-----------------------------|-----------------------------|--



E|-------------------------------------------------------------|--
B|-------------------------------------------------------------|--
G|--5/7--------7----------------7--7--7--7--7----------7----7--|--
D|----------------7-----7-----7h9--9--7-------------7--7----7--|--
A|--3-5--5--5--------5--5-------------------10--10--7--7--7h9--|--
E|-------------------------0-----------------------------------|--
http://www.guitartabcreator.com
Guitar Tab Creator is intended to store guitar tab created through the tool. It currently does not support in-line text editing. Any text you place in here will be lost. If you need to comment on your tab, please use the "Tab Notes" section located below.