Jimi Hendrix - Hey Joe - solo

(/) Slide Up  (\) Slide Down  (h) Hammer On  (p) Pull Off  (b) Bend (r) Release (v) Vibrato

E|----------12------------------------|----------12---------------------------------------|--
B|--15b17v------15--12----------------|--15b17v------15--12---------12--------------------|--
G|----------------------14b16b14r12v--|----------------------14b16------14--12--14r12b13--|--
D|------------------------------------|---------------------------------------------------|--
A|------------------------------------|---------------------------------------------------|--
E|------------------------------------|---------------------------------------------------|--



E|----------------------------------------------|-----------------|--
B|----------------------------------------------|--15b17--15b17v--|--
G|-------12------12-----------------12v---------|-----------------|--
D|--14v------14-------------12-----------14\12--|-----------------|--
A|-------------------12/14------14--------------|-----------------|--
E|----------------------------------------------|-----------------|--



E|--12--12--12---------12----------------------------------|-------------12--15b17b15v-----
B|--12--15--12--12-----12--15---------12-------------------|---------12--------------------
G|--------------14b16----------14b15--------------14--12v--|--14b16------------------------
D|----------------------------------------12--14-----------|-------------------------------
A|---------------------------------------------------------|-------------------------------
E|---------------------------------------------------------|-------------------------------



E|--12-------------12-------------|-----------------------------------------
B|-------------15------15---------|-----------------------------------------
G|------14b16--------------14b16--|--12v------------------------12v---------
D|--------------------------------|-------14\12--14-16--14--16-------14\12--
A|--------------------------------|--------------14/16----------------------
E|--------------------------------|-----------------------------------------



E|--
B|--
G|--
D|--
A|--
E|--
http://www.guitartabcreator.com
Guitar Tab Creator is intended to store guitar tab created through the tool. It currently does not support in-line text editing. Any text you place in here will be lost. If you need to comment on your tab, please use the "Tab Notes" section located below.