Hendrix "Watchtower" style intro

(/) Slide Up  (\) Slide Down  (h) Hammer On  (p) Pull Off  (b) Bend (r) Release (v) Vibrato


E|-----4-----------4-------------------------------------------------------------------
B|--4--5--4--2--4--5--4--2--------12--14b16--14b16--14b16v--16r14--12------------------
G|--4--6--4--2--4--6--4--2--2/13---------------------------------------11/13--11--11v--
D|--4--6--4--2--4--6--4--2-------------------------------------------------------------
A|--2--4--2--0--2--4--2--0-------------------------------------------------------------
E|-------------------------------------------------------------------------------------



E|--------------------------------------------------------------------------------
B|--------------------------------------------------------12p9-----12b14--12b14v--
G|--------9--11--11b13--11p9--11b13--11b13v--13b11p9------------9-----------------
D|--9/11----------------------------------------------11--------------------------
A|--------------------------------------------------------------------------------
E|--------------------------------------------------------------------------------



E|--
B|--
G|--
D|--
A|--
E|--
http://www.guitartabcreator.com
Guitar Tab Creator is intended to store guitar tab created through the tool. It currently does not support in-line text editing. Any text you place in here will be lost. If you need to comment on your tab, please use the "Tab Notes" section located below.