Hendrix Voodoo Style lick

(/) Slide Up  (\) Slide Down  (h) Hammer On  (p) Pull Off  (b) Bend (r) Release (v) Vibrato


E|----------0-----0-------0---------------0-------3--0h2r0-----0---------------0-------
B|-------0-----3-----3b4-----3r0-------0-----3r0------------3-----3r0-------0-----3r0--
G|--2b3---------------------------2b3----------------------------------2b3-------------
D|-------------------------------------------------------------------------------------
A|-------------------------------------------------------------------------------------
E|-------------------------------------------------------------------------------------



E|---------------------------------------------------------------------------------------
B|---------------------------------------------------------------------------------------
G|--2b3r2r0--3--0------------------------------------------------------------------------
D|-----------------2--0h2v--0h2--0---------------------0h2----------2-----5--2--0--------
A|----------------------------------2--1--0h1r0----------------3/4-----4-----------2--1--
E|-----------------------------------------------3--0-------0----------------------------



E|-----------------------
B|-----------------------
G|-----------------------
D|---------------0h3-----
A|--0h1r0----------------
E|---------3--0-------0--
http://www.guitartabcreator.com
Guitar Tab Creator is intended to store guitar tab created through the tool. It currently does not support in-line text editing. Any text you place in here will be lost. If you need to comment on your tab, please use the "Tab Notes" section located below.