Duane Allman - Little Martha - part 2

(/) Slide Up  (\) Slide Down  (h) Hammer On  (p) Pull Off  (b) Bend (r) Release (v) Vibrato


E|------------------------|--------------------|------------------------|-----5-----|--
B|--7h9--------9r7-----7--|--5--------5--------|--7h9--------9r7-----7--|-----5-----|--
G|--7-8--------8-7-----7--|--5-----5-----------|--7-8--------8-7-----7--|-----5-----|--
D|--7-9-----9----7-----7--|--5--5-----------7--|----9-----9----7-----7--|--5--5-----|--
A|-------0----------0-----|--------------0-----|-------0----------0-----|--------0--|--
E|------------------------|--------------------|------------------------|-----------|--



E|------------------------|-----------------|--------------|--------------|-----------------|--
B|--7h9--------9r7-----7--|--5--------5-----|--2--5-----7--|--7-----7-----|--9-----5-----2--|--
G|--7-8--------8-7-----7--|--5-----5--------|--1--5-----7--|--7-----7-----|--8-----5-----1--|--
D|--7-9-----9----7-----7--|--5--5-----------|--2--5-----7--|-----7--------|--9-----5-----2--|--
A|-------0----------0-----|--------------0--|--------0-----|-----------0--|-----0-----0-----|--
E|------------------------|-----------------|--------------|--------------|-----------------|--



E|--------------|--
B|--2-----2-----|--
G|--1-----1-----|--
D|-----2--------|--
A|-----------0--|--
E|--------------|--



E|--------------------------|-------|------------------------------0--|--
B|--------0--------0--------|-------|-----7------7--------------0-----|--
G|-----3--------1--------0--|-------|--5--7--12--7-----------0--------|--
D|--4--------2--------0-----|-------|--5--7--12--7--------0-----------|--
A|--------------------------|-------|--5--7--12--7-----0--------------|--
E|--------------------------|--4r0--|--5--7--12--7--0-----------------|--
http://www.guitartabcreator.com
Guitar Tab Creator is intended to store guitar tab created through the tool. It currently does not support in-line text editing. Any text you place in here will be lost. If you need to comment on your tab, please use the "Tab Notes" section located below.