Duane Allman - Little Martha - part 1

(/) Slide Up  (\) Slide Down  (h) Hammer On  (p) Pull Off  (b) Bend (r) Release (v) Vibrato


E|----------------------------------------------------------------------------------------|--
B|-----------------0--------0-----------4-----------------0-------------------------------|--
G|-----------0--1--------------0--1-----1-----------0--1-----------0-----1r0--------------|--
D|--------0--------------2-----0--2-----2--------0--------------2--2----------2--0-----0--|--
A|-----0-----------------0--0--------0--------0--------------0-------------------0--------|--
E|--0-----------------0-----------------0--0--------------------------0-------------0-----|--



E|-------------------0-----|-------------------------|-------------------|-----------------------
B|----------0--------------|-----0-------------------|----------0--------|-----------------------
G|--0h1--------------------|--------------1r0--------|--0h1--------------|-----1--------0--------
D|----------------0--------|-----------0----------0--|----------------2--|--------------------0--
A|-------------------------|-------------------------|-------------0-----|--------0--------------
E|--0----0-----0--------0--|--0-----0----------0-----|--0----0-----------|--0--------0-----0-----



E|-------------------0-----|-------------------------|-------------------|--------------|--
B|----------0--------------|-----0-------------------|----------0--------|-----0--------|--
G|--0h1--------------------|--------------1r0--------|--0h1--------------|--0-----------|--
D|----------------0--------|--------0-------------0--|----------------2--|--------0-----|--
A|-------------------------|-------------------------|-------------0-----|--0--0--------|--
E|--0----0-----0--------0--|--0--------0-------0-----|--0----0-----------|-----------0--|--



E|-------------------5--|-------------------------|-------------------|-----------------------|--
B|----------5-----------|-----5-------------------|----------5--------|-----7--------5--------|--
G|--5h6-----------------|--------------6r5--------|--5h6--------------|-----------------------|--
D|--5----------5--5-----|--5-----5-----5-------5--|----------------7--|--------5-----------0--|--
A|----------------------|-------------------------|-------------5-----|-----------------------|--
E|-------5-----------5--|-----------5-------5-----|-------5-----------|--5--------5-----0-----|--



E|-------------------0-----|-------------------------|----------------------|--
B|----------0--------------|-----0-------------------|----------0-----------|--
G|--0h1--------------------|--------------1r0--------|--0h1-----------------|--
D|----------------0--------|-----------0----------0--|-------------------2--|--
A|-------------------------|-------------------------|----------------0-----|--
E|-------0-----0--------0--|--0-----0----------0-----|-------0-----0--------|--



E|-----------------------|--------|--------------------|-----------------------|--
B|-----------------------|--------|--9-----5-----7-----|--------7--------------|--
G|-----0-----------------|--------|--8-----5-----7-----|--7--------7--7--------|--
D|--------------0-----0--|--0--0--|--------5-----7-----|-----8-----------7-----|--
A|--------0--0-----------|--------|--0--0--0--0--0--0--|--------0--0-----0--0--|--
E|--0--------------0-----|--------|--------------------|-----------------------|--



E|--------------------|--------------------|--------------------|-----------------------|--
B|--9-----5-----2-----|--------2-----------|--9-----5-----7-----|--------7--------------|--
G|--8-----5-----1-----|--------1-----------|--8-----5-----7-----|--7--------7--7--------|--
D|--------5-----2-----|-----2--------------|--------5-----7-----|-----7-----------7--4--|--
A|--0--0--0--0--0--0--|--0-----0--0--0--0--|--0--0--0--0--0--0--|-----0--0-----0--0-----|--
E|--------------------|--------------------|--------------------|-----------------------|--



E|--------------------------|-------0--|------------------|--
B|--------0--------0--------|-------0--|------7-----------|--
G|-----3--------1--------0--|----------|---------7--------|--
D|--4--------2--------0-----|----------|------------7-----|--
A|--------------------------|----------|---------------0--|--
E|--------------------------|--4r0-----|------------------|--
http://www.guitartabcreator.com
Guitar Tab Creator is intended to store guitar tab created through the tool. It currently does not support in-line text editing. Any text you place in here will be lost. If you need to comment on your tab, please use the "Tab Notes" section located below.