Doobie Brothers - Rockin' Down The Highway - solo

(/) Slide Up  (\) Slide Down  (h) Hammer On  (p) Pull Off  (b) Bend (r) Release (v) Vibrato


E|----------------------|--------------|-----------------------------|-----------------------|--
B|----------------------|--------------|-----------------------------|--5b7--5b7--5r2--------|--
G|--------2--4r2-----2--|--4b6v--2-----|--2--4--4b6b4r2-----2--4--2--|-----------------4--2--|--
D|--2--4----------4-----|-----------4--|-----------------4-----------|-----------------------|--
A|----------------------|--------------|-----------------------------|-----------------------|--
E|----------------------|--------------|-----------------------------|-----------------------|--



E|-------------------|-----------------------------------------------------12b14--|--
B|-------------------|------------------10--12--12b14v--12r10------10-------------|--
G|----------------9--|--------9--10/11-------------------------11------11---------|--
D|-------7--9/11-----|--9/11------------------------------------------------------|--
A|--7/9--------------|------------------------------------------------------------|--
E|-------------------|------------------------------------------------------------|--



E|--12-----------------------------|-------------13------------------|-------------------------
B|------12b14--12r10------10--10v--|---------13------16b18v--16--13--|--16r13----------16b18v--
G|--------------------11-----------|--12/14--------------------------|---------16--15----------
D|---------------------------------|---------------------------------|-------------------------
A|---------------------------------|---------------------------------|-------------------------
E|---------------------------------|---------------------------------|-------------------------



E|----------|--16b18--16b18--16b18--13h16r13------|--13h16r13------13----------|--
B|--16--13--|---------------------------------16--|------------16------16b18v--|--
G|----------|-------------------------------------|----------------------------|--
D|----------|-------------------------------------|----------------------------|--
A|----------|-------------------------------------|----------------------------|--
E|----------|-------------------------------------|----------------------------|--



E|-------------12------10-----9-----|--7-----9------10---------12------|--
B|---------12-----------------------|----------------------------------|--
G|--11/13----------11------9-----7--|-----9-----11------11/13------13--|--
D|----------------------------------|----------------------------------|--
A|----------------------------------|----------------------------------|--
E|----------------------------------|----------------------------------|--



E|-------------15------------------|--18b20--18b20--18b19v--|--|--
B|---------15------18b20v--18--15--|------------------------|--|--
G|--13/16--------------------------|------------------------|--|--
D|---------------------------------|------------------------|--|--
A|---------------------------------|------------------------|--|--
E|---------------------------------|------------------------|--|--



E|--
B|--
G|--
D|--
A|--
E|--
http://www.guitartabcreator.com
Guitar Tab Creator is intended to store guitar tab created through the tool. It currently does not support in-line text editing. Any text you place in here will be lost. If you need to comment on your tab, please use the "Tab Notes" section located below.