Doobie Brothers - China Grove style solo

(/) Slide Up  (\) Slide Down  (h) Hammer On  (p) Pull Off  (b) Bend (r) Release (v) Vibrato


E|-----------------------------------------------------------------------------------------
B|-----------------------------------------------------------------------------------------
G|--------9--9------11---------9--11b13--11b13--11b13--11--9v--12b14--11b13b11--9------9v--
D|--9h11--------11------9--11------------------------------------------------------11------
A|-----------------------------------------------------------------------------------------
E|-----------------------------------------------------------------------------------------



E|------------------------------------------------12---------12----------------------
B|---------12h14--12b14--------------------------------------------------------------
G|-----------------------12b11--9------9v--11b13------11b13------12b11--9------9-----
D|--11--9--------------------------11--------------------------------------11--------
A|-----------------------------------------------------------------------------------
E|-----------------------------------------------------------------------------------



E|-------------12-----------------------12----------12---------12------15b17--15--15b16--
B|---------12------15v--15--15--15--15------12--15------12h15------12--------------------
G|--11/13--------------------------------------------------------------------------------
D|---------------------------------------------------------------------------------------
A|---------------------------------------------------------------------------------------
E|---------------------------------------------------------------------------------------



E|--15b16--12------12-------------12v------12----------12---------------------
B|-------------15------15b17--15-------15------15--12------15--12--15p14--12--
G|----------------------------------------------------------------------------
D|----------------------------------------------------------------------------
A|----------------------------------------------------------------------------
E|----------------------------------------------------------------------------



E|--------------------------------12--------------------------------
B|--15--12--15p14--12---------12------12--15p12------12-------------
G|---------------------12h13---------------------14------12b13------
D|--------------------------------------------------------------14--
A|------------------------------------------------------------------
E|------------------------------------------------------------------



E|--
B|--
G|--
D|--
A|--
E|--
http://www.guitartabcreator.com
Guitar Tab Creator is intended to store guitar tab created through the tool. It currently does not support in-line text editing. Any text you place in here will be lost. If you need to comment on your tab, please use the "Tab Notes" section located below.