Cissy Strut - main riff - plus James Brown funk guitar riff - "on the one"

(/) Slide Up  (\) Slide Down  (h) Hammer On  (p) Pull Off  (b) Bend (r) Release (v) Vibrato
Cissy Strut
2X 2X -then repeat-
E|------------------------------------6--6--------|---------------------------------------|--
B|------------------------------------6--6--6--6--|---------------------------------------|--
G|--5--3------------------------------7--7--5--5--|--5--5--3-----5--3v--5--3--5--3--------|--
D|--------5---------------------------8--8--7--7--|-----------5---------------------5-----|--
A|-----------6b7--3--------3-----3----------------|------------------------------------3--|--
E|-------------------3--5-----5-------------------|---------------------------------------|--

James Brown - On The One

E|--4-5--7--7--8--|--8--7--5--5--|--5--7--7--8--|--10--10--10--10--|--8--7--5--5--|--
B|--4-5--5--5--5--|--5--5--5--5--|--5--5--5--5--|--10--10--10--10--|--5--5--5--5--|--
G|--4/5--5--5--5--|--5--5--5--5--|--5--5--5--5--|--9---9---9---9---|--5--5--5--5--|--
D|----------------|--------------|--------------|--10--10--10--10--|--------------|--
A|----------------|--------------|--------------|------------------|--------------|--
E|----------------|--------------|--------------|------------------|--------------|--



E|--
B|--
G|--
D|--
A|--
E|--
http://www.guitartabcreator.com
Guitar Tab Creator is intended to store guitar tab created through the tool. It currently does not support in-line text editing. Any text you place in here will be lost. If you need to comment on your tab, please use the "Tab Notes" section located below.