Buddy Holly - That'll Be The Day - solo

(/) Slide Up  (\) Slide Down  (h) Hammer On  (p) Pull Off  (b) Bend (r) Release (v) Vibrato


E|--4-5--8--5------------------------------|--8--5---------------------------|--
B|--4/5--------8--5--7-8--8--8-------------|--------8--5--7-8--8--8----------|--
G|-------------------8/9--9--9--9\7--5-----|--------------8/9--9--9--9\7--5--|--
D|--------------------------------------7--|---------------------------------|--
A|-----------------------------------------|---------------------------------|--
E|-----------------------------------------|---------------------------------|--



E|--8--5-------------------8-9--9--9----8-9--9--9----8-9--9--9----8-9--9--9--|--
B|--------8--5--7-8--8--8--7-8--8--8----7-8--8--8----7-8--8--8----7-8--8--8--|--
G|--------------8/9--9--9--8/9--9--9----8/9--9--9----8/9--9--9----8/9--9--9--|--
D|---------------------------------------------------------------------------|--
A|---------------------------------------------------------------------------|--
E|---------------------------------------------------------------------------|--


4X 4X
E|--------------|--------------|--7--7--5--|--8--5--------5--|--
B|--------------|--------------|--5--5--5--|--------5--7-----|--
G|--------------|--------------|-----------|-----------------|--
D|--7--7--9--9--|--------------|-----------|-----------------|--
A|--5--5--5--5--|--7--7--9--9--|-----------|-----------------|--
E|--------------|--5--5--5--5--|-----------|-----------------|--



E|-------5--------5--------5-------------0--0--|--|--
B|--4/5-----5--------5--------5----------5--5--|--|--
G|-------------8--------7--------5h6-----7--7--|--|--
D|------------------------------------0--6--6--|--|--
A|---------------------------------------7--7--|--|--
E|---------------------------------------0--0--|--|--



E|--
B|--
G|--
D|--
A|--
E|--
http://www.guitartabcreator.com
Guitar Tab Creator is intended to store guitar tab created through the tool. It currently does not support in-line text editing. Any text you place in here will be lost. If you need to comment on your tab, please use the "Tab Notes" section located below.